ISO-10303-21;
HEADER;
FILE_DESCRIPTION (( 'STEP AP203' ),
    '1' );
FILE_NAME ('655083pin.SLDPRT.step',
    '2003-10-13T11:35:36',
    ( 'Jerry Winters' ),
    ( 'GoEngineer' ),
    'SwSTEP 2.0',
    'SolidWorks 2003174',
    '' );
FILE_SCHEMA (( 'CONFIG_CONTROL_DESIGN' ));
ENDSEC;

DATA;
#1 = ORIENTED_EDGE ( 'NONE', *, *, #261, .F. ) ;
#2 = CIRCLE ( 'NONE', #3, 0.1000000000000002700 ) ;
#3 = AXIS2_PLACEMENT_3D ( 'NONE', #4, #5, #6 ) ;
#4 = CARTESIAN_POINT ( 'NONE',  ( 0.0000000000000000000, -2.020000000000000000, 0.0000000000000000000 ) ) ;
#5 = DIRECTION ( 'NONE',  ( 0.0000000000000000000, 1.000000000000000000, 0.0000000000000000000 ) ) ;
#6 = DIRECTION ( 'NONE',  ( 0.0000000000000000000, 0.0000000000000000000, 1.000000000000000000 ) ) ;
#7 = CARTESIAN_POINT ( 'NONE',  ( 1.224606353822378400E-017, -0.02000000000000005900, -0.1000000000000000200 ) ) ;
#8 = CIRCLE ( 'NONE', #9, 0.4200000000000000400 ) ;
#9 = AXIS2_PLACEMENT_3D ( 'NONE', #10, #11, #12 ) ;
#10 = CARTESIAN_POINT ( 'NONE',  ( 0.0000000000000000000, -1.620031716887803800, -0.005161509449138577800 ) ) ;
#11 = DIRECTION ( 'NONE',  ( -1.000000000000000000, 0.0000000000000000000, 0.0000000000000000000 ) ) ;
#12 = DIRECTION ( 'NONE',  ( 0.0000000000000000000, 0.0000000000000000000, 1.000000000000000000 ) ) ;
#13 = CIRCLE ( 'NONE', #14, 0.1230000000000000400 ) ;
#14 = AXIS2_PLACEMENT_3D ( 'NONE', #15, #16, #17 ) ;
#15 = CARTESIAN_POINT ( 'NONE',  ( 0.0000000000000000000, -0.02000000000000005900, 0.0000000000000000000 ) ) ;
#16 = DIRECTION ( 'NONE',  ( 0.0000000000000000000, 1.000000000000000000, 0.0000000000000000000 ) ) ;
#17 = DIRECTION ( 'NONE',  ( 0.0000000000000000000, 0.0000000000000000000, 1.000000000000000000 ) ) ;
#18 = ORIENTED_EDGE ( 'NONE', *, *, #269, .F. ) ;
#19 = ORIENTED_EDGE ( 'NONE', *, *, #262, .T. ) ;
#20 = FACE_OUTER_BOUND ( 'NONE', #146, .T. ) ;
#21 = TOROIDAL_SURFACE ( 'NONE', #22, -0.004349951494217770300, 0.4150000000000000400 ) ;
#22 = AXIS2_PLACEMENT_3D ( 'NONE', #23, #24, #25 ) ;
#23 = CARTESIAN_POINT ( 'NONE',  ( 0.0000000000000000000, -0.4149772016894397500, 0.0000000000000000000 ) ) ;
#24 = DIRECTION ( 'NONE',  ( 0.0000000000000000000, 1.000000000000000000, 0.0000000000000000000 ) ) ;
#25 = DIRECTION ( 'NONE',  ( 0.0000000000000000000, 0.0000000000000000000, 1.000000000000000000 ) ) ;
#26 = CIRCLE ( 'NONE', #27, 0.4200000000000000400 ) ;
#27 = AXIS2_PLACEMENT_3D ( 'NONE', #28, #29, #30 ) ;
#28 = CARTESIAN_POINT ( 'NONE',  ( -6.320817266729341400E-019, -1.620031716887803800, 0.005161509449138577800 ) ) ;
#29 = DIRECTION ( 'NONE',  ( 1.000000000000000000, 0.0000000000000000000, 1.224606353822377300E-016 ) ) ;
#30 = DIRECTION ( 'NONE',  ( 1.224606353822377300E-016, 0.0000000000000000000, -1.000000000000000000 ) ) ;
#31 = CARTESIAN_POINT ( 'NONE',  ( 0.0000000000000000000, -0.02000000000000005900, 0.1000000000000000200 ) ) ;
#32 = CIRCLE ( 'NONE', #33, 0.1229999999999997900 ) ;
#33 = AXIS2_PLACEMENT_3D ( 'NONE', #34, #35, #38 ) ;
#34 = CARTESIAN_POINT ( 'NONE',  ( 0.0000000000000000000, -2.020000000000000000, 0.0000000000000000000 ) ) ;
#35 = DIRECTION ( 'NONE',  ( 0.0000000000000000000, 1.000000000000000000, 0.0000000000000000000 ) ) ;
#36 = VERTEX_POINT ( 'NONE', #278 ) ;
#37 = VERTEX_POINT ( 'NONE', #279 ) ;
#38 = DIRECTION ( 'NONE',  ( 0.0000000000000000000, 0.0000000000000000000, 1.000000000000000000 ) ) ;
#39 = DIMENSIONAL_EXPONENTS ( 1.000000000000000000, 0.0000000000000000000, 0.0000000000000000000, 0.0000000000000000000, 0.0000000000000000000, 0.0000000000000000000, 0.0000000000000000000 ) ;
#40 = LENGTH_MEASURE_WITH_UNIT ( LENGTH_MEASURE( 0.02539999999999999900 ), #42 );
#41 =( CONVERSION_BASED_UNIT ( 'INCH', #40 ) LENGTH_UNIT ( ) NAMED_UNIT ( #39 ) );
#42 =( LENGTH_UNIT ( ) NAMED_UNIT ( * ) SI_UNIT ( $, .METRE. ) );
#43 =( NAMED_UNIT ( * ) PLANE_ANGLE_UNIT ( ) SI_UNIT ( $, .RADIAN. ) );
#44 =( NAMED_UNIT ( * ) SI_UNIT ( $, .STERADIAN. ) SOLID_ANGLE_UNIT ( ) );
#45 = UNCERTAINTY_MEASURE_WITH_UNIT (LENGTH_MEASURE( 1.000000000000000100E-005 ), #41, 'distance_accuracy_value', 'NONE');
#46 =( GEOMETRIC_REPRESENTATION_CONTEXT ( 3 ) GLOBAL_UNCERTAINTY_ASSIGNED_CONTEXT ( ( #45 ) ) GLOBAL_UNIT_ASSIGNED_CONTEXT ( ( #41, #43, #44 ) ) REPRESENTATION_CONTEXT ( 'NONE', 'WORKASPACE' ) );
#47 = ADVANCED_BREP_SHAPE_REPRESENTATION ( '655083pin.SLDPRT', ( #258, #48 ), #46 ) ;
#48 = AXIS2_PLACEMENT_3D ( 'NONE', #49, #50, #51 ) ;
#49 = CARTESIAN_POINT ( 'NONE',  ( 0.0000000000000000000, 0.0000000000000000000, 0.0000000000000000000 ) ) ;
#50 = DIRECTION ( 'NONE',  ( 0.0000000000000000000, 0.0000000000000000000, 1.000000000000000000 ) ) ;
#51 = DIRECTION ( 'NONE',  ( 1.000000000000000000, 0.0000000000000000000, 0.0000000000000000000 ) ) ;
#52 = APPLICATION_CONTEXT ( 'configuration controlled 3d designs of mechanical parts and assemblies' ) ;
#53 = APPLICATION_PROTOCOL_DEFINITION ( 'international standard', 'config_control_design', 1994, #52 ) ;
#54 = MECHANICAL_CONTEXT ( 'NONE', #52, 'mechanical' ) ;
#55 = PRODUCT ( '655083pin.SLDPRT', '655083pin.SLDPRT', '', ( #54 ) ) ;
#56 = PERSON ( 'UNSPECIFIED', 'UNSPECIFIED', 'UNSPECIFIED', ('UNSPECIFIED'), ('UNSPECIFIED'), ('UNSPECIFIED') ) ;
#57 = ORGANIZATION ( 'UNSPECIFIED', 'UNSPECIFIED', '' ) ;
#58 = PERSON_AND_ORGANIZATION ( #56, #57 ) ;
#59 = PERSON_AND_ORGANIZATION_ROLE ( 'design_owner' ) ;
#60 = CC_DESIGN_PERSON_AND_ORGANIZATION_ASSIGNMENT ( #58, #59, ( #55 ) ) ;
#61 = APPLICATION_CONTEXT ( 'configuration controlled 3d designs of mechanical parts and assemblies' ) ;
#62 = APPLICATION_PROTOCOL_DEFINITION ( 'international standard', 'config_control_design', 1994, #61 ) ;
#63 = DESIGN_CONTEXT ( 'detailed design', #61, 'design' ) ;
#64 = PRODUCT_DEFINITION ( 'UNKNOWN', '', #87, #63 ) ;
#65 = PERSON_AND_ORGANIZATION ( #56, #57 ) ;
#66 = ORIENTED_EDGE ( 'NONE', *, *, #266, .F. ) ;
#67 = EDGE_LOOP ( 'NONE', ( #257, #138, #176, #270 ) ) ;
#68 = APPROVAL_STATUS ( 'not_yet_approved' ) ;
#69 = APPROVAL ( #68, 'UNSPECIFIED' ) ;
#70 = APPROVAL_ROLE ( '' ) ;
#71 = APPROVAL_PERSON_ORGANIZATION ( #65, #69, #70 ) ;
#72 = COORDINATED_UNIVERSAL_TIME_OFFSET ( 7, 0, .BEHIND. ) ;
#73 = LOCAL_TIME ( 5, 35, 36.00000000000000000, #72 ) ;
#74 = CALENDAR_DATE ( 2003, 13, 10 ) ;
#75 = DATE_AND_TIME ( #74, #73 ) ;
#76 = APPROVAL_DATE_TIME ( #75, #69 ) ;
#77 = CC_DESIGN_APPROVAL ( #69, ( #64 ) ) ;
#78 = PERSON_AND_ORGANIZATION ( #56, #57 ) ;
#79 = PERSON_AND_ORGANIZATION_ROLE ( 'creator' ) ;
#80 = CC_DESIGN_PERSON_AND_ORGANIZATION_ASSIGNMENT ( #78, #79, ( #64 ) ) ;
#81 = COORDINATED_UNIVERSAL_TIME_OFFSET ( 7, 0, .BEHIND. ) ;
#82 = LOCAL_TIME ( 5, 35, 36.00000000000000000, #81 ) ;
#83 = CALENDAR_DATE ( 2003, 13, 10 ) ;
#84 = DATE_AND_TIME ( #83, #82 ) ;
#85 = DATE_TIME_ROLE ( 'creation_date' ) ;
#86 = CC_DESIGN_DATE_AND_TIME_ASSIGNMENT ( #84, #85, ( #64 ) ) ;
#87 = PRODUCT_DEFINITION_FORMATION_WITH_SPECIFIED_SOURCE ( 'ANY', '', #55, .NOT_KNOWN. ) ;
#88 = PERSON_AND_ORGANIZATION ( #56, #57 ) ;
#89 = APPROVAL_STATUS ( 'not_yet_approved' ) ;
#90 = APPROVAL ( #89, 'UNSPECIFIED' ) ;
#91 = APPROVAL_ROLE ( '' ) ;
#92 = APPROVAL_PERSON_ORGANIZATION ( #88, #90, #91 ) ;
#93 = COORDINATED_UNIVERSAL_TIME_OFFSET ( 7, 0, .BEHIND. ) ;
#94 = LOCAL_TIME ( 5, 35, 36.00000000000000000, #93 ) ;
#95 = CALENDAR_DATE ( 2003, 13, 10 ) ;
#96 = DATE_AND_TIME ( #95, #94 ) ;
#97 = APPROVAL_DATE_TIME ( #96, #90 ) ;
#98 = CC_DESIGN_APPROVAL ( #90, ( #87 ) ) ;
#99 = PERSON_AND_ORGANIZATION ( #56, #57 ) ;
#100 = ORIENTED_EDGE ( 'NONE', *, *, #158, .F. ) ;
#101 = ADVANCED_FACE ( 'NONE', ( #165, #166 ), #167, .F. ) ;
#102 = PERSON_AND_ORGANIZATION_ROLE ( 'creator' ) ;
#103 = CC_DESIGN_PERSON_AND_ORGANIZATION_ASSIGNMENT ( #99, #102, ( #87 ) ) ;
#104 = PERSON_AND_ORGANIZATION ( #56, #57 ) ;
#105 = PERSON_AND_ORGANIZATION_ROLE ( 'design_supplier' ) ;
#106 = CC_DESIGN_PERSON_AND_ORGANIZATION_ASSIGNMENT ( #104, #105, ( #87 ) ) ;
#107 = SECURITY_CLASSIFICATION_LEVEL ( 'unclassified' ) ;
#108 = SECURITY_CLASSIFICATION ( '', '', #107 ) ;
#109 = PERSON_AND_ORGANIZATION ( #56, #57 ) ;
#110 = PERSON_AND_ORGANIZATION_ROLE ( 'classification_officer' ) ;
#111 = CC_DESIGN_PERSON_AND_ORGANIZATION_ASSIGNMENT ( #109, #110, ( #108 ) ) ;
#112 = COORDINATED_UNIVERSAL_TIME_OFFSET ( 7, 0, .BEHIND. ) ;
#113 = LOCAL_TIME ( 5, 35, 36.00000000000000000, #112 ) ;
#114 = CALENDAR_DATE ( 2003, 13, 10 ) ;
#115 = DATE_AND_TIME ( #114, #113 ) ;
#116 = DATE_TIME_ROLE ( 'classification_date' ) ;
#117 = CC_DESIGN_DATE_AND_TIME_ASSIGNMENT ( #115, #116, ( #108 ) ) ;
#118 = PERSON_AND_ORGANIZATION ( #56, #57 ) ;
#119 = APPROVAL_STATUS ( 'not_yet_approved' ) ;
#120 = APPROVAL ( #119, 'UNSPECIFIED' ) ;
#121 = APPROVAL_ROLE ( '' ) ;
#122 = APPROVAL_PERSON_ORGANIZATION ( #118, #120, #121 ) ;
#123 = COORDINATED_UNIVERSAL_TIME_OFFSET ( 7, 0, .BEHIND. ) ;
#124 = LOCAL_TIME ( 5, 35, 36.00000000000000000, #123 ) ;
#125 = CALENDAR_DATE ( 2003, 13, 10 ) ;
#126 = DATE_AND_TIME ( #125, #124 ) ;
#127 = APPROVAL_DATE_TIME ( #126, #120 ) ;
#128 = CC_DESIGN_APPROVAL ( #120, ( #108 ) ) ;
#129 = CC_DESIGN_SECURITY_CLASSIFICATION ( #108, ( #87 ) ) ;
#130 = PRODUCT_RELATED_PRODUCT_CATEGORY ( 'detail', '', ( #55 ) ) ;
#131 = PRODUCT_DEFINITION_SHAPE ( 'NONE', 'NONE',  #64 ) ;
#132 = SHAPE_DEFINITION_REPRESENTATION ( #131, #47 ) ;
#133 = ORIENTED_EDGE ( 'NONE', *, *, #271, .F. ) ;
#134 = CLOSED_SHELL ( 'NONE', ( #143, #101, #259, #248, #150, #156, #260, #249 ) ) ;
#135 = ORIENTED_EDGE ( 'NONE', *, *, #227, .T. ) ;
#136 = EDGE_LOOP ( 'NONE', ( #264, #252, #66 ) ) ;
#137 = ORIENTED_EDGE ( 'NONE', *, *, #269, .T. ) ;
#138 = ORIENTED_EDGE ( 'NONE', *, *, #271, .T. ) ;
#139 = ORIENTED_EDGE ( 'NONE', *, *, #158, .T. ) ;
#140 = VERTEX_POINT ( 'NONE', #212 ) ;
#141 = VERTEX_POINT ( 'NONE', #213 ) ;
#142 = EDGE_LOOP ( 'NONE', ( #135, #147 ) ) ;
#143 = ADVANCED_FACE ( 'NONE', ( #220 ), #221, .T. ) ;
#144 = ORIENTED_EDGE ( 'NONE', *, *, #227, .F. ) ;
#145 = ORIENTED_EDGE ( 'NONE', *, *, #262, .F. ) ;
#146 = EDGE_LOOP ( 'NONE', ( #254, #137, #157 ) ) ;
#147 = ORIENTED_EDGE ( 'NONE', *, *, #267, .T. ) ;
#148 = VERTEX_POINT ( 'NONE', #232 ) ;
#149 = EDGE_LOOP ( 'NONE', ( #145, #133 ) ) ;
#150 = ADVANCED_FACE ( 'NONE', ( #238 ), #239, .T. ) ;
#151 = EDGE_LOOP ( 'NONE', ( #263, #139, #144 ) ) ;
#152 = ORIENTED_EDGE ( 'NONE', *, *, #256, .T. ) ;
#153 = VERTEX_POINT ( 'NONE', #7 ) ;
#154 = EDGE_CURVE ( 'NONE', #140, #36, #8, .T. ) ;
#155 = EDGE_CURVE ( 'NONE', #141, #37, #13, .T. ) ;
#156 = ADVANCED_FACE ( 'NONE', ( #20 ), #21, .T. ) ;
#157 = ORIENTED_EDGE ( 'NONE', *, *, #266, .T. ) ;
#158 = EDGE_CURVE ( 'NONE', #140, #265, #26, .T. ) ;
#159 = DIRECTION ( 'NONE',  ( 0.0000000000000000000, 1.000000000000000000, 0.0000000000000000000 ) ) ;
#160 = DIRECTION ( 'NONE',  ( 0.0000000000000000000, 0.0000000000000000000, 1.000000000000000000 ) ) ;
#161 = LINE ( 'NONE', #162, #163 ) ;
#162 = CARTESIAN_POINT ( 'NONE',  ( 1.224606353822379100E-017, 1.928714859437751000, -0.1000000000000001400 ) ) ;
#163 = VECTOR ( 'NONE', #164, 39.37007874015748100 ) ;
#164 = DIRECTION ( 'NONE',  ( 0.0000000000000000000, 1.000000000000000000, 0.0000000000000000000 ) ) ;
#165 = FACE_OUTER_BOUND ( 'NONE', #272, .T. ) ;
#166 = FACE_BOUND ( 'NONE', #268, .T. ) ;
#167 = PLANE ( 'NONE',  #168 ) ;
#168 = AXIS2_PLACEMENT_3D ( 'NONE', #169, #170, #171 ) ;
#169 = CARTESIAN_POINT ( 'NONE',  ( 0.1230000000000000400, -0.01999999999999999000, 0.0000000000000000000 ) ) ;
#170 = DIRECTION ( 'NONE',  ( 0.0000000000000000000, 1.000000000000000000, 0.0000000000000000000 ) ) ;
#171 = DIRECTION ( 'NONE',  ( 0.0000000000000000000, 0.0000000000000000000, 1.000000000000000000 ) ) ;
#172 = CIRCLE ( 'NONE', #173, 0.1000000000000000200 ) ;
#173 = AXIS2_PLACEMENT_3D ( 'NONE', #174, #177, #178 ) ;
#174 = CARTESIAN_POINT ( 'NONE',  ( 0.0000000000000000000, -0.02000000000000005900, 0.0000000000000000000 ) ) ;
#175 = VERTEX_POINT ( 'NONE', #31 ) ;
#176 = ORIENTED_EDGE ( 'NONE', *, *, #261, .T. ) ;
#177 = DIRECTION ( 'NONE',  ( 0.0000000000000000000, 1.000000000000000000, 0.0000000000000000000 ) ) ;
#178 = DIRECTION ( 'NONE',  ( 0.0000000000000000000, 0.0000000000000000000, 1.000000000000000000 ) ) ;
#179 = CIRCLE ( 'NONE', #180, 0.4149999999999999200 ) ;
#180 = AXIS2_PLACEMENT_3D ( 'NONE', #181, #182, #183 ) ;
#181 = CARTESIAN_POINT ( 'NONE',  ( -5.326978238638226000E-019, -0.4149772016894397500, 0.004349951494217770300 ) ) ;
#182 = DIRECTION ( 'NONE',  ( 1.000000000000000000, 0.0000000000000000000, 1.224606353822377300E-016 ) ) ;
#183 = DIRECTION ( 'NONE',  ( 1.224606353822377500E-016, 0.0000000000000000000, -1.000000000000000000 ) ) ;
#184 = CIRCLE ( 'NONE', #185, 0.1000000000000000200 ) ;
#185 = AXIS2_PLACEMENT_3D ( 'NONE', #186, #187, #188 ) ;
#186 = CARTESIAN_POINT ( 'NONE',  ( 0.0000000000000000000, -0.02000000000000005900, 0.0000000000000000000 ) ) ;
#187 = DIRECTION ( 'NONE',  ( 0.0000000000000000000, 1.000000000000000000, 0.0000000000000000000 ) ) ;
#188 = DIRECTION ( 'NONE',  ( 0.0000000000000000000, 0.0000000000000000000, 1.000000000000000000 ) ) ;
#189 = FACE_OUTER_BOUND ( 'NONE', #194, .T. ) ;
#190 = CYLINDRICAL_SURFACE ( 'NONE', #191, 0.1000000000000001400 ) ;
#191 = AXIS2_PLACEMENT_3D ( 'NONE', #192, #195, #196 ) ;
#192 = CARTESIAN_POINT ( 'NONE',  ( 0.0000000000000000000, 1.928714859437751000, 0.0000000000000000000 ) ) ;
#193 = ORIENTED_EDGE ( 'NONE', *, *, #155, .F. ) ;
#194 = EDGE_LOOP ( 'NONE', ( #19, #273, #274, #1 ) ) ;
#195 = DIRECTION ( 'NONE',  ( 0.0000000000000000000, 1.000000000000000000, 0.0000000000000000000 ) ) ;
#196 = DIRECTION ( 'NONE',  ( 0.0000000000000000000, 0.0000000000000000000, 1.000000000000000000 ) ) ;
#197 = FACE_OUTER_BOUND ( 'NONE', #247, .T. ) ;
#198 = TOROIDAL_SURFACE ( 'NONE', #199, -0.005161509449138577800, 0.4200000000000000400 ) ;
#199 = AXIS2_PLACEMENT_3D ( 'NONE', #200, #201, #202 ) ;
#200 = CARTESIAN_POINT ( 'NONE',  ( 0.0000000000000000000, -1.620031716887803800, 0.0000000000000000000 ) ) ;
#201 = DIRECTION ( 'NONE',  ( 0.0000000000000000000, 1.000000000000000000, 0.0000000000000000000 ) ) ;
#202 = DIRECTION ( 'NONE',  ( 0.0000000000000000000, 0.0000000000000000000, 1.000000000000000000 ) ) ;
#203 = LINE ( 'NONE', #204, #205 ) ;
#204 = CARTESIAN_POINT ( 'NONE',  ( 0.0000000000000000000, 1.928714859437751000, 0.1000000000000001400 ) ) ;
#205 = VECTOR ( 'NONE', #206, 39.37007874015748100 ) ;
#206 = DIRECTION ( 'NONE',  ( 0.0000000000000000000, 1.000000000000000000, 0.0000000000000000000 ) ) ;
#207 = CIRCLE ( 'NONE', #208, 0.1000000000000002700 ) ;
#208 = AXIS2_PLACEMENT_3D ( 'NONE', #209, #210, #211 ) ;
#209 = CARTESIAN_POINT ( 'NONE',  ( 0.0000000000000000000, -2.020000000000000000, 0.0000000000000000000 ) ) ;
#210 = DIRECTION ( 'NONE',  ( 0.0000000000000000000, 1.000000000000000000, 0.0000000000000000000 ) ) ;
#211 = DIRECTION ( 'NONE',  ( 0.0000000000000000000, 0.0000000000000000000, 1.000000000000000000 ) ) ;
#212 = CARTESIAN_POINT ( 'NONE',  ( 4.860113433376753600E-016, -2.040000000000000500, 0.0000000000000000000 ) ) ;
#213 = CARTESIAN_POINT ( 'NONE',  ( 0.0000000000000000000, -0.02000000000000009400, 0.1230000000000001500 ) ) ;
#214 = CARTESIAN_POINT ( 'NONE',  ( 1.506265815201531900E-017, -2.020000000000000000, -0.1230000000000006200 ) ) ;
#215 = CIRCLE ( 'NONE', #216, 0.4149999999999999200 ) ;
#216 = AXIS2_PLACEMENT_3D ( 'NONE', #217, #218, #219 ) ;
#217 = CARTESIAN_POINT ( 'NONE',  ( 0.0000000000000000000, -0.4149772016894397500, -0.004349951494217770300 ) ) ;
#218 = DIRECTION ( 'NONE',  ( -1.000000000000000000, 0.0000000000000000000, 0.0000000000000000000 ) ) ;
#219 = DIRECTION ( 'NONE',  ( 0.0000000000000000000, 0.0000000000000000000, 1.000000000000000000 ) ) ;
#220 = FACE_OUTER_BOUND ( 'NONE', #67, .T. ) ;
#221 = CYLINDRICAL_SURFACE ( 'NONE', #222, 0.1000000000000001400 ) ;
#222 = AXIS2_PLACEMENT_3D ( 'NONE', #223, #224, #225 ) ;
#223 = CARTESIAN_POINT ( 'NONE',  ( 0.0000000000000000000, 1.928714859437751000, 0.0000000000000000000 ) ) ;
#224 = DIRECTION ( 'NONE',  ( 0.0000000000000000000, 1.000000000000000000, 0.0000000000000000000 ) ) ;
#225 = DIRECTION ( 'NONE',  ( 0.0000000000000000000, 0.0000000000000000000, 1.000000000000000000 ) ) ;
#226 = CIRCLE ( 'NONE', #228, 0.1229999999999997900 ) ;
#227 = EDGE_CURVE ( 'NONE', #36, #265, #32, .T. ) ;
#228 = AXIS2_PLACEMENT_3D ( 'NONE', #229, #230, #231 ) ;
#229 = CARTESIAN_POINT ( 'NONE',  ( 0.0000000000000000000, -2.020000000000000000, 0.0000000000000000000 ) ) ;
#230 = DIRECTION ( 'NONE',  ( 0.0000000000000000000, 1.000000000000000000, 0.0000000000000000000 ) ) ;
#231 = DIRECTION ( 'NONE',  ( 0.0000000000000000000, 0.0000000000000000000, 1.000000000000000000 ) ) ;
#232 = CARTESIAN_POINT ( 'NONE',  ( 1.224606353822380400E-017, -2.020000000000000000, -0.1000000000000002700 ) ) ;
#233 = CIRCLE ( 'NONE', #234, 0.1230000000000000400 ) ;
#234 = AXIS2_PLACEMENT_3D ( 'NONE', #235, #236, #237 ) ;
#235 = CARTESIAN_POINT ( 'NONE',  ( 0.0000000000000000000, -0.02000000000000005900, 0.0000000000000000000 ) ) ;
#236 = DIRECTION ( 'NONE',  ( 0.0000000000000000000, 1.000000000000000000, 0.0000000000000000000 ) ) ;
#237 = DIRECTION ( 'NONE',  ( 0.0000000000000000000, 0.0000000000000000000, 1.000000000000000000 ) ) ;
#238 = FACE_OUTER_BOUND ( 'NONE', #136, .T. ) ;
#239 = TOROIDAL_SURFACE ( 'NONE', #240, -0.004349951494217770300, 0.4150000000000000400 ) ;
#240 = AXIS2_PLACEMENT_3D ( 'NONE', #241, #242, #243 ) ;
#241 = CARTESIAN_POINT ( 'NONE',  ( 0.0000000000000000000, -0.4149772016894397500, 0.0000000000000000000 ) ) ;
#242 = DIRECTION ( 'NONE',  ( 0.0000000000000000000, 1.000000000000000000, 0.0000000000000000000 ) ) ;
#243 = DIRECTION ( 'NONE',  ( 0.0000000000000000000, 0.0000000000000000000, 1.000000000000000000 ) ) ;
#244 = VERTEX_POINT ( 'NONE', #276 ) ;
#245 = ORIENTED_EDGE ( 'NONE', *, *, #154, .T. ) ;
#246 = VERTEX_POINT ( 'NONE', #277 ) ;
#247 = EDGE_LOOP ( 'NONE', ( #100, #245, #250 ) ) ;
#248 = ADVANCED_FACE ( 'NONE', ( #280, #281 ), #282, .F. ) ;
#249 = ADVANCED_FACE ( 'NONE', ( #287 ), #288, .T. ) ;
#250 = ORIENTED_EDGE ( 'NONE', *, *, #267, .F. ) ;
#251 = EDGE_CURVE ( 'NONE', #148, #153, #161, .T. ) ;
#252 = ORIENTED_EDGE ( 'NONE', *, *, #255, .T. ) ;
#253 = EDGE_CURVE ( 'NONE', #153, #175, #172, .T. ) ;
#254 = ORIENTED_EDGE ( 'NONE', *, *, #255, .F. ) ;
#255 = EDGE_CURVE ( 'NONE', #37, #244, #179, .T. ) ;
#256 = EDGE_CURVE ( 'NONE', #175, #153, #184, .T. ) ;
#257 = ORIENTED_EDGE ( 'NONE', *, *, #251, .F. ) ;
#258 = MANIFOLD_SOLID_BREP ( 'NONE', #134 ) ;
#259 = ADVANCED_FACE ( 'NONE', ( #189 ), #190, .T. ) ;
#260 = ADVANCED_FACE ( 'NONE', ( #197 ), #198, .T. ) ;
#261 = EDGE_CURVE ( 'NONE', #246, #175, #203, .T. ) ;
#262 = EDGE_CURVE ( 'NONE', #246, #148, #207, .T. ) ;
#263 = ORIENTED_EDGE ( 'NONE', *, *, #154, .F. ) ;
#264 = ORIENTED_EDGE ( 'NONE', *, *, #155, .T. ) ;
#265 = VERTEX_POINT ( 'NONE', #214 ) ;
#266 = EDGE_CURVE ( 'NONE', #141, #244, #215, .T. ) ;
#267 = EDGE_CURVE ( 'NONE', #265, #36, #226, .T. ) ;
#268 = EDGE_LOOP ( 'NONE', ( #152, #275 ) ) ;
#269 = EDGE_CURVE ( 'NONE', #37, #141, #233, .T. ) ;
#270 = ORIENTED_EDGE ( 'NONE', *, *, #253, .F. ) ;
#271 = EDGE_CURVE ( 'NONE', #148, #246, #2, .T. ) ;
#272 = EDGE_LOOP ( 'NONE', ( #193, #18 ) ) ;
#273 = ORIENTED_EDGE ( 'NONE', *, *, #251, .T. ) ;
#274 = ORIENTED_EDGE ( 'NONE', *, *, #256, .F. ) ;
#275 = ORIENTED_EDGE ( 'NONE', *, *, #253, .T. ) ;
#276 = CARTESIAN_POINT ( 'NONE',  ( 0.0000000000000000000, 0.0000000000000000000, 0.0000000000000000000 ) ) ;
#277 = CARTESIAN_POINT ( 'NONE',  ( 0.0000000000000000000, -2.020000000000000000, 0.1000000000000002700 ) ) ;
#278 = CARTESIAN_POINT ( 'NONE',  ( 0.0000000000000000000, -2.020000000000000000, 0.1230000000000006200 ) ) ;
#279 = CARTESIAN_POINT ( 'NONE',  ( 1.506265815201525700E-017, -0.02000000000000009400, -0.1230000000000001500 ) ) ;
#280 = FACE_BOUND ( 'NONE', #149, .T. ) ;
#281 = FACE_OUTER_BOUND ( 'NONE', #142, .T. ) ;
#282 = PLANE ( 'NONE',  #283 ) ;
#283 = AXIS2_PLACEMENT_3D ( 'NONE', #284, #285, #286 ) ;
#284 = CARTESIAN_POINT ( 'NONE',  ( 0.1000000000000002700, -2.020000000000000000, 0.0000000000000000000 ) ) ;
#285 = DIRECTION ( 'NONE',  ( 0.0000000000000000000, -1.000000000000000000, 0.0000000000000000000 ) ) ;
#286 = DIRECTION ( 'NONE',  ( 0.0000000000000000000, 0.0000000000000000000, -1.000000000000000000 ) ) ;
#287 = FACE_OUTER_BOUND ( 'NONE', #151, .T. ) ;
#288 = TOROIDAL_SURFACE ( 'NONE', #289, -0.005161509449138577800, 0.4200000000000000400 ) ;
#289 = AXIS2_PLACEMENT_3D ( 'NONE', #290, #159, #160 ) ;
#290 = CARTESIAN_POINT ( 'NONE',  ( 0.0000000000000000000, -1.620031716887803800, 0.0000000000000000000 ) ) ;
ENDSEC;
END-ISO-10303-21;
